狂信的な危機

コスプレ アニメ コミック オンラインゲーム関連の日記

スポンサーサイト

上記の広告は1ヶ月以上更新のないブログに表示されています。
新しい記事を書く事で広告が消せます。
  1. --/--/--(--) --:--:--|
  2. スポンサー広告

洗脳されまくり

ずっとハルヒのGod knowsとLost my music聞きまくってるんですが飽きないわぁ。

やはりというか2ちゃんでは祭になってるみたいで
God knowsイントロギターソロTAB 某スレより
E ------|-16---0-14-0-0-12-0-0-14-0-0-12---14-0-|-16-0-0-14-0-0-12-0-
B ------|---------------------------------------|--------------------


E 0-14-0-0-12---14-0-|-16-0-0-14-0-0-12-0-0-14-0-0-12---11---|-------12---11--
B -------------------|---------------------------------------|----------------


E ------------11---12---|-16---0-14-0-0-12-0-0-14-0-0-12---14-0-|-16-0-0-14-0-0-
B 12-------14-----------|----------------------------------------|---------------


E 12-0-0-14-0-0-12---14---|-16-14-12-16-14-12-16-14-12-16-14-12-16-14-12
B -------------------------|------------------------------------------


E -16-14-12-16-14-12-16-14-13-|-16-14-12--------16-14-12---------
B ----------------------------|---------16-14-12----------16-14-12-


E -16-14-12------------- --0-|~
B ----------16-14-12-16-12-0-|~

まぁこんな感じなんですわ。めんどいから全部書くのやめた。
1弦2弦しかつかってないので他は省略。


練習してますが所詮ギター本職じゃないので早弾きなんてできません。ベースTABもあったのでそっちなら弾けるわ。

これを機にエレキぎつぁーも購入しようかなぁ。

この曲が有線で流れたらパンピーにはインディーズのガールズポップバンドとでも思って盛り上がらないかなと期待してみるもジャケットがコレじゃ無理ですね。すいませんでした。

やっぱ歪んだギターの音は心地良いわぁ。やっぱロックが一番やね。
デスノートの曲もレッチリなので心揺さぶられまくりですよ。
またロックの時代がこないものか。


バンドをまたやりたくなってきているとーさんでした。
スポンサーサイト

テーマ:涼宮ハルヒの憂鬱 - ジャンル:アニメ・コミック

  1. 2006/06/23(金) 23:05:39|
  2. 音楽
  3. | トラックバック:0
  4. | コメント:0
<<ジャンプ30号 | ホーム | 寝不足>>

コメント

コメントの投稿


管理者にだけ表示を許可する

トラックバック

トラックバック URL
http://fanatics.blog20.fc2.com/tb.php/372-33c04f0c
この記事にトラックバックする(FC2ブログユーザー)
上記広告は1ヶ月以上更新のないブログに表示されています。新しい記事を書くことで広告を消せます。